  0
SECTION
  2
HEADER
  9
$ACADVER
  1
AC1015
  9
$ACADMAINTVER
 70
     6
  9
$DWGCODEPAGE
  3
ANSI_1254
  9
$INSBASE
 10
0.0
 20
0.0
 30
0.0
  9
$EXTMIN
 10
0.0
 20
0.0
 30
0.0
  9
$EXTMAX
 10
279.4
 20
215.9
 30
0.0
  9
$LIMMIN
 10
0.0
 20
0.0
  9
$LIMMAX
 10
279.4
 20
215.9
  9
$ORTHOMODE
 70
     0
  9
$REGENMODE
 70
     1
  9
$FILLMODE
 70
     1
  9
$QTEXTMODE
 70
     0
  9
$MIRRTEXT
 70
     1
  9
$LTSCALE
 40
1.0
  9
$ATTMODE
 70
     1
  9
$TEXTSIZE
 40
3.5
  9
$TRACEWID
 40
1.0
  9
$TEXTSTYLE
  7
Standard
  9
$CLAYER
  8
0
  9
$CELTYPE
  6
ByLayer
  9
$CECOLOR
 62
   256
  9
$CELTSCALE
 40
1.0
  9
$DISPSILH
 70
     0
  9
$DIMSCALE
 40
1.0
  9
$DIMASZ
 40
3.5
  9
$DIMEXO
 40
1.0
  9
$DIMDLI
 40
3.75
  9
$DIMRND
 40
0.0
  9
$DIMDLE
 40
0.0
  9
$DIMEXE
 40
1.0
  9
$DIMTP
 40
0.0
  9
$DIMTM
 40
0.0
  9
$DIMTXT
 40
3.5
  9
$DIMCEN
 40
2.5
  9
$DIMTSZ
 40
0.0
  9
$DIMTOL
 70
     0
  9
$DIMLIM
 70
     0
  9
$DIMTIH
 70
     1
  9
$DIMTOH
 70
     1
  9
$DIMSE1
 70
     0
  9
$DIMSE2
 70
     0
  9
$DIMTAD
 70
     1
  9
$DIMZIN
 70
     0
  9
$DIMBLK
  1

  9
$DIMASO
 70
     1
  9
$DIMSHO
 70
     1
  9
$DIMPOST
  1

  9
$DIMAPOST
  1

  9
$DIMALT
 70
     0
  9
$DIMALTD
 70
     3
  9
$DIMALTF
 40
0.0393700787
  9
$DIMLFAC
 40
1.0
  9
$DIMTOFL
 70
     1
  9
$DIMTVP
 40
0.0
  9
$DIMTIX
 70
     0
  9
$DIMSOXD
 70
     0
  9
$DIMSAH
 70
     0
  9
$DIMBLK1
  1

  9
$DIMBLK2
  1

  9
$DIMSTYLE
  2
ISO-25
  9
$DIMCLRD
 70
     0
  9
$DIMCLRE
 70
     0
  9
$DIMCLRT
 70
     0
  9
$DIMTFAC
 40
1.0
  9
$DIMGAP
 40
1.524
  9
$DIMJUST
 70
     0
  9
$DIMSD1
 70
     0
  9
$DIMSD2
 70
     0
  9
$DIMTOLJ
 70
     0
  9
$DIMTZIN
 70
     0
  9
$DIMALTZ
 70
     0
  9
$DIMALTTZ
 70
     0
  9
$DIMUPT
 70
     0
  9
$DIMDEC
 70
     2
  9
$DIMTDEC
 70
     2
  9
$DIMALTU
 70
     2
  9
$DIMALTTD
 70
     3
  9
$DIMTXSTY
  7
Standard
  9
$DIMAUNIT
 70
     0
  9
$DIMADEC
 70
     2
  9
$DIMALTRND
 40
0.0
  9
$DIMAZIN
 70
     0
  9
$DIMDSEP
 70
    44
  9
$DIMATFIT
 70
     3
  9
$DIMFRAC
 70
     0
  9
$DIMLDRBLK
  1

  9
$DIMLUNIT
 70
     2
  9
$DIMLWD
 70
    -2
  9
$DIMLWE
 70
    -2
  9
$DIMTMOVE
 70
     0
  9
$LUNITS
 70
     2
  9
$LUPREC
 70
     2
  9
$SKETCHINC
 40
1.0
  9
$FILLETRAD
 40
10.0
  9
$AUNITS
 70
     0
  9
$AUPREC
 70
     2
  9
$MENU
  1
.
  9
$ELEVATION
 40
0.0
  9
$PELEVATION
 40
0.0
  9
$THICKNESS
 40
0.0
  9
$LIMCHECK
 70
     0
  9
$CHAMFERA
 40
0.0
  9
$CHAMFERB
 40
0.0
  9
$CHAMFERC
 40
0.0
  9
$CHAMFERD
 40
0.0
  9
$SKPOLY
 70
     0
  9
$TDCREATE
 40
2460704.46018941
  9
$TDUCREATE
 40
2460704.33518941
  9
$TDUPDATE
 40
2460704.460189595
  9
$TDUUPDATE
 40
2460704.335189595
  9
$TDINDWG
 40
0.0000000116
  9
$TDUSRTIMER
 40
0.0000000116
  9
$USRTIMER
 70
     1
  9
$ANGBASE
 50
0.0
  9
$ANGDIR
 70
     0
  9
$PDMODE
 70
     0
  9
$PDSIZE
 40
-1.0
  9
$PLINEWID
 40
0.0
  9
$SPLFRAME
 70
     0
  9
$SPLINETYPE
 70
     6
  9
$SPLINESEGS
 70
     8
  9
$HANDSEED
  5
B6
  9
$SURFTAB1
 70
     6
  9
$SURFTAB2
 70
     6
  9
$SURFTYPE
 70
     6
  9
$SURFU
 70
     6
  9
$SURFV
 70
     6
  9
$UCSBASE
  2

  9
$UCSNAME
  2

  9
$UCSORG
 10
0.0
 20
0.0
 30
0.0
  9
$UCSXDIR
 10
1.0
 20
0.0
 30
0.0
  9
$UCSYDIR
 10
0.0
 20
1.0
 30
0.0
  9
$UCSORTHOREF
  2

  9
$UCSORTHOVIEW
 70
     0
  9
$UCSORGTOP
 10
0.0
 20
0.0
 30
0.0
  9
$UCSORGBOTTOM
 10
0.0
 20
0.0
 30
0.0
  9
$UCSORGLEFT
 10
0.0
 20
0.0
 30
0.0
  9
$UCSORGRIGHT
 10
0.0
 20
0.0
 30
0.0
  9
$UCSORGFRONT
 10
0.0
 20
0.0
 30
0.0
  9
$UCSORGBACK
 10
0.0
 20
0.0
 30
0.0
  9
$PUCSBASE
  2

  9
$PUCSNAME
  2

  9
$PUCSORG
 10
0.0
 20
0.0
 30
0.0
  9
$PUCSXDIR
 10
1.0
 20
0.0
 30
0.0
  9
$PUCSYDIR
 10
0.0
 20
1.0
 30
0.0
  9
$PUCSORTHOREF
  2

  9
$PUCSORTHOVIEW
 70
     0
  9
$PUCSORGTOP
 10
0.0
 20
0.0
 30
0.0
  9
$PUCSORGBOTTOM
 10
0.0
 20
0.0
 30
0.0
  9
$PUCSORGLEFT
 10
0.0
 20
0.0
 30
0.0
  9
$PUCSORGRIGHT
 10
0.0
 20
0.0
 30
0.0
  9
$PUCSORGFRONT
 10
0.0
 20
0.0
 30
0.0
  9
$PUCSORGBACK
 10
0.0
 20
0.0
 30
0.0
  9
$USERI1
 70
     0
  9
$USERI2
 70
     0
  9
$USERI3
 70
     0
  9
$USERI4
 70
     0
  9
$USERI5
 70
     0
  9
$USERR1
 40
0.0
  9
$USERR2
 40
0.0
  9
$USERR3
 40
0.0
  9
$USERR4
 40
0.0
  9
$USERR5
 40
0.0
  9
$WORLDVIEW
 70
     1
  9
$SHADEDGE
 70
     3
  9
$SHADEDIF
 70
    70
  9
$TILEMODE
 70
     1
  9
$MAXACTVP
 70
    64
  9
$PINSBASE
 10
0.0
 20
0.0
 30
0.0
  9
$PLIMCHECK
 70
     0
  9
$PEXTMIN
 10
1.0000000000E+20
 20
1.0000000000E+20
 30
1.0000000000E+20
  9
$PEXTMAX
 10
-1.0000000000E+20
 20
-1.0000000000E+20
 30
-1.0000000000E+20
  9
$PLIMMIN
 10
0.0
 20
0.0
  9
$PLIMMAX
 10
420.0
 20
297.0
  9
$UNITMODE
 70
     0
  9
$VISRETAIN
 70
     1
  9
$PLINEGEN
 70
     0
  9
$PSLTSCALE
 70
     1
  9
$TREEDEPTH
 70
  3020
  9
$CMLSTYLE
  2
Standard
  9
$CMLJUST
 70
     0
  9
$CMLSCALE
 40
20.0
  9
$PROXYGRAPHICS
 70
     1
  9
$MEASUREMENT
 70
     1
  9
$CELWEIGHT
370
    -1
  9
$ENDCAPS
280
     0
  9
$JOINSTYLE
280
     0
  9
$LWDISPLAY
290
     1
  9
$INSUNITS
 70
     4
  9
$HYPERLINKBASE
  1

  9
$STYLESHEET
  1

  9
$XEDIT
290
     1
  9
$CEPSNTYPE
380
     0
  9
$PSTYLEMODE
290
     1
  9
$FINGERPRINTGUID
  2
{9bef4a7d-f740-4f35-a428-88d0a2dbb2a1}
  9
$VERSIONGUID
  2
{FAEB1C32-E019-11D5-929B-00C0DF256EC4}
  9
$EXTNAMES
290
     1
  9
$PSVPSCALE
 40
0.0
  9
$OLESTARTUP
290
     0
  0
ENDSEC
  0
SECTION
  2
CLASSES
  0
CLASS
  1
ACDBDICTIONARYWDFLT
  2
AcDbDictionaryWithDefault
  3
ObjectDBX Classes
 90
        0
280
     0
281
     0
  0
CLASS
  1
VISUALSTYLE
  2
AcDbVisualStyle
  3
ObjectDBX Classes
 90
     4095
280
     0
281
     0
  0
CLASS
  1
MATERIAL
  2
AcDbMaterial
  3
ObjectDBX Classes
 90
     1153
280
     0
281
     0
  0
CLASS
  1
SCALE
  2
AcDbScale
  3
ObjectDBX Classes
 90
     1153
280
     0
281
     0
  0
CLASS
  1
TABLESTYLE
  2
AcDbTableStyle
  3
ObjectDBX Classes
 90
     4095
280
     0
281
     0
  0
CLASS
  1
MLEADERSTYLE
  2
AcDbMLeaderStyle
  3
ACDB_MLEADERSTYLE_CLASS
 90
     4095
280
     0
281
     0
  0
CLASS
  1
SUN
  2
AcDbSun
  3
SCENEOE
 90
     1153
280
     0
281
     0
  0
CLASS
  1
ACDBPLACEHOLDER
  2
AcDbPlaceHolder
  3
ObjectDBX Classes
 90
        0
280
     0
281
     0
  0
CLASS
  1
LAYOUT
  2
AcDbLayout
  3
ObjectDBX Classes
 90
        0
280
     0
281
     0
  0
ENDSEC
  0
SECTION
  2
TABLES
  0
TABLE
  2
VPORT
  5
8
330
0
100
AcDbSymbolTable
 70
     1
  0
VPORT
  5
29
330
8
100
AcDbSymbolTableRecord
100
AcDbViewportTableRecord
  2
*Active
 70
     0
 10
0.0
 20
0.0
 11
1.0
 21
1.0
 12
139.7
 22
107.95
 13
0.0
 23
0.0
 14
10.0
 24
10.0
 15
10.0
 25
10.0
 16
0.0
 26
0.0
 36
1.0
 17
0.0
 27
0.0
 37
0.0
 40
215.9
 41
1.2941176471
 42
50.0
 43
0.0
 44
0.0
 50
0.0
 51
0.0
 71
     0
 72
  2000
 73
     1
 74
     3
 75
     0
 76
     0
 77
     0
 78
     0
281
     0
 65
     1
110
0.0
120
0.0
130
0.0
111
1.0
121
0.0
131
0.0
112
0.0
122
1.0
132
0.0
 79
     0
146
0.0
  0
ENDTAB
  0
TABLE
  2
LTYPE
  5
5
330
0
100
AcDbSymbolTable
 70
     6
  0
LTYPE
  5
14
330
5
100
AcDbSymbolTableRecord
100
AcDbLinetypeTableRecord
  2
ByBlock
 70
     0
  3

 72
    65
 73
     0
 40
0.0
  0
LTYPE
  5
15
330
5
100
AcDbSymbolTableRecord
100
AcDbLinetypeTableRecord
  2
ByLayer
 70
     0
  3

 72
    65
 73
     0
 40
0.0
  0
LTYPE
  5
16
330
5
100
AcDbSymbolTableRecord
100
AcDbLinetypeTableRecord
  2
Continuous
 70
     0
  3
Solid line
 72
    65
 73
     0
 40
0.0
  0
LTYPE
  5
6E
330
5
100
AcDbSymbolTableRecord
100
AcDbLinetypeTableRecord
  2
HIDDEN
 70
     0
  3
Hidden __ __ __ __ __ __ __ __ __ __ __ __ __ __
 72
    65
 73
     2
 40
1.905
 49
1.27
 74
     0
 49
-0.635
 74
     0
  0
LTYPE
  5
6F
330
5
100
AcDbSymbolTableRecord
100
AcDbLinetypeTableRecord
  2
PHANTOM
 70
     0
  3
Phantom ______  __  __  ______  __  __  ______
 72
    65
 73
     6
 40
12.7
 49
6.35
 74
     0
 49
-1.27
 74
     0
 49
1.27
 74
     0
 49
-1.27
 74
     0
 49
1.27
 74
     0
 49
-1.27
 74
     0
  0
LTYPE
  5
70
330
5
100
AcDbSymbolTableRecord
100
AcDbLinetypeTableRecord
  2
CENTER
 70
     0
  3
Center ____ _ ____ _ ____ _ ____ _ ____ _ ____
 72
    65
 73
     4
 40
10.16
 49
6.35
 74
     0
 49
-1.27
 74
     0
 49
1.27
 74
     0
 49
-1.27
 74
     0
  0
LTYPE
  5
71
330
5
100
AcDbSymbolTableRecord
100
AcDbLinetypeTableRecord
  2
CENTERX2
 70
     0
  3
Center (2x) ________  __  ________  __  _____
 72
    65
 73
     4
 40
20.32
 49
12.7
 74
     0
 49
-2.54
 74
     0
 49
2.54
 74
     0
 49
-2.54
 74
     0
  0
LTYPE
  5
72
330
5
100
AcDbSymbolTableRecord
100
AcDbLinetypeTableRecord
  2
DOT2
 70
     0
  3
Dot (.5x) ........................................
 72
    65
 73
     2
 40
0.635
 49
0.0
 74
     0
 49
-0.635
 74
     0
  0
ENDTAB
  0
TABLE
  2
LAYER
  5
2
330
0
100
AcDbSymbolTable
 70
    17
  0
LAYER
  5
10
330
2
100
AcDbSymbolTableRecord
100
AcDbLayerTableRecord
  2
0
 70
     0
 62
     7
  6
Continuous
370
    -3
390
F
  0
LAYER
  5
73
330
2
100
AcDbSymbolTableRecord
100
AcDbLayerTableRecord
  2
FORMAT
 70
     0
 62
     7
  6
Continuous
370
    -3
390
F
  0
LAYER
  5
74
330
2
100
AcDbSymbolTableRecord
100
AcDbLayerTableRecord
  2
YARDIMCI_GEOMETRI
 70
     0
 62
    -6
  6
Continuous
290
     0
370
    -3
390
F
  0
LAYER
  5
75
330
2
100
AcDbSymbolTableRecord
100
AcDbLayerTableRecord
  2
SAYFA_CERCEVESI
 70
     0
 62
     7
  6
Continuous
370
    25
390
F
  0
LAYER
  5
76
330
2
100
AcDbSymbolTableRecord
100
AcDbLayerTableRecord
  2
ANTET
 70
     0
 62
     7
  6
Continuous
370
    -3
390
F
  0
LAYER
  5
77
330
2
100
AcDbSymbolTableRecord
100
AcDbLayerTableRecord
  2
OLCU
 70
     0
 62
   150
  6
Continuous
370
    -3
390
F
  0
LAYER
  5
78
330
2
100
AcDbSymbolTableRecord
100
AcDbLayerTableRecord
  2
METIN
 70
     0
 62
    96
  6
Continuous
370
    -3
390
F
  0
LAYER
  5
79
330
2
100
AcDbSymbolTableRecord
100
AcDbLayerTableRecord
  2
BALON
 70
     0
 62
     5
  6
Continuous
370
    -3
390
F
  0
LAYER
  5
7A
330
2
100
AcDbSymbolTableRecord
100
AcDbLayerTableRecord
  2
VURGU
 70
     0
 62
     7
  6
Continuous
370
    -3
390
F
  0
LAYER
  5
7B
330
2
100
AcDbSymbolTableRecord
100
AcDbLayerTableRecord
  2
SILIK
 70
     0
 62
     7
  6
Continuous
370
    -3
390
F
  0
LAYER
  5
7C
330
2
100
AcDbSymbolTableRecord
100
AcDbLayerTableRecord
  2
MODEL
 70
     0
 62
     7
  6
Continuous
370
    -3
390
F
  0
LAYER
  5
7D
330
2
100
AcDbSymbolTableRecord
100
AcDbLayerTableRecord
  2
DETAYLANDıRMA
 70
     0
 62
   190
  6
Continuous
370
    -3
390
F
  0
LAYER
  5
7E
330
2
100
AcDbSymbolTableRecord
100
AcDbLayerTableRecord
  2
TOLERANS
 70
     0
 62
   230
  6
Continuous
370
    -3
390
F
  0
LAYER
  5
7F
330
2
100
AcDbSymbolTableRecord
100
AcDbLayerTableRecord
  2
MERKEZ_CIZGILERI
 70
     0
 62
    30
  6
Continuous
370
    -3
390
F
  0
LAYER
  5
80
330
2
100
AcDbSymbolTableRecord
100
AcDbLayerTableRecord
  2
KESIT-DETAY_CIZGILERI
 70
     0
 62
     7
  6
Continuous
370
    -3
390
F
  0
LAYER
  5
81
330
2
100
AcDbSymbolTableRecord
100
AcDbLayerTableRecord
  2
\U+041E\U+0421\U+0415\U+0412\U+042B\U+0415
 70
     0
 62
     7
  6
Continuous
370
    -3
390
F
  0
LAYER
  5
82
330
2
100
AcDbSymbolTableRecord
100
AcDbLayerTableRecord
  2
\U+0412\U+041E\U+0414\U+042F\U+041D\U+042B\U+0415_\U+0417\U+041D\U+0410\U+041A\U+0418
 70
     0
 62
    11
  6
Continuous
370
    -3
390
F
  0
ENDTAB
  0
TABLE
  2
STYLE
  5
3
330
0
100
AcDbSymbolTable
 70
     1
  0
STYLE
  5
11
330
3
100
AcDbSymbolTableRecord
100
AcDbTextStyleTableRecord
  2
Standard
 70
     0
 40
0.0
 41
1.0
 50
0.0
 71
     0
 42
3.5
  3
txt
  4

  0
ENDTAB
  0
TABLE
  2
VIEW
  5
6
330
0
100
AcDbSymbolTable
 70
     0
  0
ENDTAB
  0
TABLE
  2
UCS
  5
7
330
0
100
AcDbSymbolTable
 70
     0
  0
ENDTAB
  0
TABLE
  2
APPID
  5
9
330
0
100
AcDbSymbolTable
 70
     1
  0
APPID
  5
12
330
9
100
AcDbSymbolTableRecord
100
AcDbRegAppTableRecord
  2
ACAD
 70
     0
  0
ENDTAB
  0
TABLE
  2
DIMSTYLE
  5
A
330
0
100
AcDbSymbolTable
 70
     1
100
AcDbDimStyleTable
  0
DIMSTYLE
105
27
330
A
100
AcDbSymbolTableRecord
100
AcDbDimStyleTableRecord
  2
ISO-25
 70
     0
 41
2.5
 42
0.625
 43
3.75
 44
1.25
 73
     0
 74
     0
 77
     1
 78
     8
140
2.5
141
2.5
143
0.0393700787
147
0.625
171
     3
172
     1
178
     0
271
     2
272
     2
274
     3
278
    44
283
     0
284
     8
340
11
  0
ENDTAB
  0
TABLE
  2
BLOCK_RECORD
  5
1
330
0
100
AcDbSymbolTable
 70
     2
  0
BLOCK_RECORD
  5
1F
330
1
100
AcDbSymbolTableRecord
100
AcDbBlockTableRecord
  2
*Model_Space
340
22
  0
BLOCK_RECORD
  5
1B
330
1
100
AcDbSymbolTableRecord
100
AcDbBlockTableRecord
  2
*Paper_Space
340
1E
  0
BLOCK_RECORD
  5
23
330
1
100
AcDbSymbolTableRecord
100
AcDbBlockTableRecord
  2
*Paper_Space0
340
26
  0
BLOCK_RECORD
  5
85
330
1
100
AcDbSymbolTableRecord
100
AcDbBlockTableRecord
  2
SW_CENTERMARKSYMBOL_0
340
0
102
{BLKREFS
331
90
102
}
  0
ENDTAB
  0
ENDSEC
  0
SECTION
  2
BLOCKS
  0
BLOCK
  5
20
330
1F
100
AcDbEntity
  8
0
100
AcDbBlockBegin
  2
*Model_Space
 70
     0
 10
0.0
 20
0.0
 30
0.0
  3
*Model_Space
  1

  0
ENDBLK
  5
21
330
1F
100
AcDbEntity
  8
0
100
AcDbBlockEnd
  0
BLOCK
  5
1C
330
1B
100
AcDbEntity
 67
     1
  8
0
100
AcDbBlockBegin
  2
*Paper_Space
 70
     0
 10
0.0
 20
0.0
 30
0.0
  3
*Paper_Space
  1

  0
ENDBLK
  5
1D
330
1B
100
AcDbEntity
 67
     1
  8
0
100
AcDbBlockEnd
  0
BLOCK
  5
24
330
23
100
AcDbEntity
  8
0
100
AcDbBlockBegin
  2
*Paper_Space0
 70
     0
 10
0.0
 20
0.0
 30
0.0
  3
*Paper_Space0
  1

  0
ENDBLK
  5
25
330
23
100
AcDbEntity
  8
0
100
AcDbBlockEnd
  0
BLOCK
  5
86
330
85
100
AcDbEntity
  8
0
100
AcDbBlockBegin
  2
SW_CENTERMARKSYMBOL_0
 70
     0
 10
0.0
 20
0.0
 30
0.0
  3
SW_CENTERMARKSYMBOL_0
  1

  0
LINE
  5
88
330
85
100
AcDbEntity
  8
FORMAT
 62
     0
100
AcDbLine
 10
0.0
 20
0.0
 30
0.0
 11
0.0
 21
2.5
 31
0.0
  0
LINE
  5
89
330
85
100
AcDbEntity
  8
FORMAT
 62
     0
100
AcDbLine
 10
0.0
 20
0.0
 30
0.0
 11
-2.5
 21
0.0
 31
0.0
  0
LINE
  5
8A
330
85
100
AcDbEntity
  8
FORMAT
 62
     0
100
AcDbLine
 10
0.0
 20
0.0
 30
0.0
 11
0.0
 21
-2.5
 31
0.0
  0
LINE
  5
8B
330
85
100
AcDbEntity
  8
FORMAT
 62
     0
100
AcDbLine
 10
0.0
 20
0.0
 30
0.0
 11
2.5
 21
0.0
 31
0.0
  0
LINE
  5
8C
330
85
100
AcDbEntity
  8
FORMAT
 62
     0
100
AcDbLine
 10
0.0
 20
5.0
 30
0.0
 11
0.0
 21
65.0
 31
0.0
  0
LINE
  5
8D
330
85
100
AcDbEntity
  8
FORMAT
 62
     0
100
AcDbLine
 10
-5.0
 20
0.0
 30
0.0
 11
-65.0
 21
0.0
 31
0.0
  0
LINE
  5
8E
330
85
100
AcDbEntity
  8
FORMAT
 62
     0
100
AcDbLine
 10
0.0
 20
-5.0
 30
0.0
 11
0.0
 21
-65.0
 31
0.0
  0
LINE
  5
8F
330
85
100
AcDbEntity
  8
FORMAT
 62
     0
100
AcDbLine
 10
5.0
 20
0.0
 30
0.0
 11
65.0
 21
0.0
 31
0.0
  0
ENDBLK
  5
87
330
85
100
AcDbEntity
  8
0
100
AcDbBlockEnd
  0
ENDSEC
  0
SECTION
  2
ENTITIES
  0
CIRCLE
  5
83
330
1F
100
AcDbEntity
  8
0
  6
Continuous
 62
     7
370
    25
100
AcDbCircle
 10
138.3249893956
 20
110.1675297214
 30
0.0
 40
62.49999999999997
  0
CIRCLE
  5
84
330
1F
100
AcDbEntity
  8
0
  6
Continuous
 62
     7
370
    25
100
AcDbCircle
 10
138.3249893956
 20
110.1675297214
 30
0.0
 40
55.09999999999998
  0
INSERT
  5
90
330
1F
100
AcDbEntity
  8
FORMAT
 62
     7
100
AcDbBlockReference
  2
SW_CENTERMARKSYMBOL_0
 10
138.3249893956
 20
110.1675297214
 30
0.0
  0
LINE
  5
91
330
1F
100
AcDbEntity
  8
0
  6
Continuous
 62
     7
370
    25
100
AcDbLine
 10
75.8249893956
 20
6.1852371609
 30
0.0
 11
75.8249893956
 21
-87.6683412878
 31
0.0
  0
LINE
  5
92
330
1F
100
AcDbEntity
  8
0
  6
Continuous
 62
     7
370
    25
100
AcDbLine
 10
200.8249893956
 20
-87.6683412878
 30
0.0
 11
200.8249893956
 21
6.1852371609
 31
0.0
  0
ARC
  5
93
330
1F
100
AcDbEntity
  8
0
  6
Continuous
 62
     7
370
    25
100
AcDbCircle
 10
136.2358758888
 20
154.9229297694
 30
0.0
 40
250.0000000000001
100
AcDbArc
 50
256.0164359054
 51
270.0
  0
ARC
  5
94
330
1F
100
AcDbEntity
  8
0
  6
Continuous
 62
     7
370
    25
100
AcDbCircle
 10
140.4141029024
 20
154.9229297694
 30
0.0
 40
250.0000000000001
100
AcDbArc
 50
270.0
 51
283.9835640946
  0
LINE
  5
95
330
1F
100
AcDbEntity
  8
0
  6
Continuous
 62
     7
370
    25
100
AcDbLine
 10
136.2358758888
 20
-95.0770702306
 30
0.0
 11
140.4141029024
 21
-95.0770702306
 31
0.0
  0
LINE
  5
96
330
1F
100
AcDbEntity
  8
0
  6
Continuous
 62
     7
370
    25
100
AcDbLine
 10
138.3249893956
 20
6.1852371609
 30
0.0
 11
200.8249893956
 21
6.1852371609
 31
0.0
  0
LINE
  5
97
330
1F
100
AcDbEntity
  8
0
  6
Continuous
 62
     7
370
    25
100
AcDbLine
 10
75.8249893956
 20
6.1852371609
 30
0.0
 11
138.3249893956
 21
6.1852371609
 31
0.0
  0
LINE
  5
98
330
1F
100
AcDbEntity
  8
0
  6
Continuous
 62
     7
370
    25
100
AcDbLine
 10
138.3249893956
 20
-87.6683412878
 30
0.0
 11
200.8249893956
 21
-87.6683412878
 31
0.0
  0
LINE
  5
99
330
1F
100
AcDbEntity
  8
0
  6
Continuous
 62
     7
370
    25
100
AcDbLine
 10
75.8249893956
 20
-87.6683412878
 30
0.0
 11
138.3249893956
 21
-87.6683412878
 31
0.0
  0
LINE
  5
9A
330
1F
100
AcDbEntity
  8
0
  6
Continuous
 62
     7
370
    25
100
AcDbLine
 10
200.8249893956
 20
205.7211594253
 30
0.0
 11
200.8249893956
 21
299.5747378739
 31
0.0
  0
LINE
  5
9B
330
1F
100
AcDbEntity
  8
0
  6
Continuous
 62
     7
370
    25
100
AcDbLine
 10
75.8249893956
 20
299.5747378739
 30
0.0
 11
75.8249893956
 21
205.7211594253
 31
0.0
  0
ARC
  5
9C
330
1F
100
AcDbEntity
  8
0
  6
Continuous
 62
     7
370
    25
100
AcDbCircle
 10
140.4141029024
 20
56.9834668168
 30
0.0
 40
250.0000000000001
100
AcDbArc
 50
76.0164359054
 51
90.0
  0
ARC
  5
9D
330
1F
100
AcDbEntity
  8
0
  6
Continuous
 62
     7
370
    25
100
AcDbCircle
 10
136.2358758888
 20
56.9834668168
 30
0.0
 40
250.0000000000001
100
AcDbArc
 50
90.0
 51
103.9835640946
  0
LINE
  5
9E
330
1F
100
AcDbEntity
  8
0
  6
Continuous
 62
     7
370
    25
100
AcDbLine
 10
140.4141029024
 20
306.9834668168
 30
0.0
 11
136.2358758888
 21
306.9834668168
 31
0.0
  0
LINE
  5
9F
330
1F
100
AcDbEntity
  8
0
  6
Continuous
 62
     7
370
    25
100
AcDbLine
 10
200.8249893956
 20
205.7211594253
 30
0.0
 11
75.8249893956
 21
205.7211594253
 31
0.0
  0
LINE
  5
A0
330
1F
100
AcDbEntity
  8
0
  6
Continuous
 62
     7
370
    25
100
AcDbLine
 10
200.8249893956
 20
299.5747378739
 30
0.0
 11
75.8249893956
 21
299.5747378739
 31
0.0
  0
LINE
  5
A1
330
1F
100
AcDbEntity
  8
0
  6
Continuous
 62
     7
370
    25
100
AcDbLine
 10
335.0470969771
 20
172.6675297214
 30
0.0
 11
241.1935185284
 21
172.6675297214
 31
0.0
  0
LINE
  5
A2
330
1F
100
AcDbEntity
  8
0
  6
Continuous
 62
     7
370
    25
100
AcDbLine
 10
241.1935185284
 20
47.6675297214
 30
0.0
 11
335.0470969771
 21
47.6675297214
 31
0.0
  0
ARC
  5
A3
330
1F
100
AcDbEntity
  8
0
  6
Continuous
 62
     7
370
    25
100
AcDbCircle
 10
483.7847895855
 20
112.2566432282
 30
0.0
 40
250.0000000000002
100
AcDbArc
 50
166.0164359054
 51
180.0
  0
ARC
  5
A4
330
1F
100
AcDbEntity
  8
0
  6
Continuous
 62
     7
370
    25
100
AcDbCircle
 10
483.7847895855
 20
108.0784162145
 30
0.0
 40
250.0000000000002
100
AcDbArc
 50
180.0
 51
193.9835640946
  0
LINE
  5
A5
330
1F
100
AcDbEntity
  8
0
  6
Continuous
 62
     7
370
    25
100
AcDbLine
 10
233.7847895855
 20
112.2566432282
 30
0.0
 11
233.7847895855
 21
108.0784162145
 31
0.0
  0
LINE
  5
A6
330
1F
100
AcDbEntity
  8
0
  6
Continuous
 62
     7
370
    25
100
AcDbLine
 10
335.0470969771
 20
172.6675297214
 30
0.0
 11
335.0470969771
 21
47.6675297214
 31
0.0
  0
LINE
  5
A7
330
1F
100
AcDbEntity
  8
0
  6
Continuous
 62
     7
370
    25
100
AcDbLine
 10
241.1935185284
 20
172.6675297214
 30
0.0
 11
241.1935185284
 21
47.6675297214
 31
0.0
  0
LINE
  5
A8
330
1F
100
AcDbEntity
  8
0
  6
Continuous
 62
     7
370
    25
100
AcDbLine
 10
-55.9050807129
 20
47.6675297214
 30
0.0
 11
37.9484977358
 21
47.6675297214
 31
0.0
  0
LINE
  5
A9
330
1F
100
AcDbEntity
  8
0
  6
Continuous
 62
     7
370
    25
100
AcDbLine
 10
37.9484977358
 20
172.6675297214
 30
0.0
 11
-55.9050807129
 21
172.6675297214
 31
0.0
  0
ARC
  5
AA
330
1F
100
AcDbEntity
  8
0
  6
Continuous
 62
     7
370
    25
100
AcDbCircle
 10
-204.6427733213
 20
108.0784162145
 30
0.0
 40
250.0000000000001
100
AcDbArc
 50
346.0164359054
 51
0.0
  0
ARC
  5
AB
330
1F
100
AcDbEntity
  8
0
  6
Continuous
 62
     7
370
    25
100
AcDbCircle
 10
-204.6427733213
 20
112.2566432282
 30
0.0
 40
250.0000000000001
100
AcDbArc
 50
0.0
 51
13.9835640946
  0
LINE
  5
AC
330
1F
100
AcDbEntity
  8
0
  6
Continuous
 62
     7
370
    25
100
AcDbLine
 10
45.3572266787
 20
108.0784162145
 30
0.0
 11
45.3572266787
 21
112.2566432282
 31
0.0
  0
LINE
  5
AD
330
1F
100
AcDbEntity
  8
0
  6
Continuous
 62
     7
370
    25
100
AcDbLine
 10
-55.9050807129
 20
47.6675297214
 30
0.0
 11
-55.9050807129
 21
172.6675297214
 31
0.0
  0
LINE
  5
AE
330
1F
100
AcDbEntity
  8
0
  6
Continuous
 62
     7
370
    25
100
AcDbLine
 10
37.9484977358
 20
47.6675297214
 30
0.0
 11
37.9484977358
 21
172.6675297214
 31
0.0
  0
LINE
  5
AF
330
1F
100
AcDbEntity
  8
0
  6
Continuous
 62
     7
370
    25
100
AcDbLine
 10
241.6265979527
 20
-83.6599770924
 30
0.0
 11
307.9910997124
 21
-121.971388477
 31
0.0
  0
LINE
  5
B0
330
1F
100
AcDbEntity
  8
0
  6
Continuous
 62
     7
370
    25
100
AcDbLine
 10
370.4860205022
 20
-13.7152806794
 30
0.0
 11
304.1215187425
 21
24.5961307052
 31
0.0
  0
LWPOLYLINE
  5
B1
330
1F
100
AcDbEntity
  8
0
  6
Continuous
 62
     7
370
    25
100
AcDbPolyline
 90
      134
 70
   128
 43
0.0
 10
272.8740583476
 20
-80.5657239365
 10
274.9611027619
 20
-79.3039606591
 10
277.0434901641
 20
-77.9311365041
 10
279.1165739335
 20
-76.450314779
 10
281.1757282097
 20
-74.8647997762
 10
283.2163582143
 20
-73.1781293994
 10
285.2339105039
 20
-71.39406727
 10
287.2238831302
 20
-69.5165943281
 10
289.1818356864
 20
-67.54989995
 10
291.1033992146
 20
-65.4983725998
 10
292.9842859553
 20
-63.3665900373
 10
294.8202989146
 20
-61.159309103
 10
296.6073412297
 20
-58.8814551036
 10
298.3414253105
 20
-56.5381108223
 10
300.0186817372
 20
-54.1345051762
 10
301.635367895
 20
-51.6760015497
 10
303.1878763249
 20
-49.1680858254
 10
304.6727427734
 20
-46.6163541442
 10
306.086653923
 20
-44.0265004171
 10
307.426454785
 20
-41.4043036205
 10
308.6891557397
 20
-38.7556149007
 10
309.8719392077
 20
-36.0863445182
 10
310.9721659364
 20
-33.4024486587
 10
311.9873808899
 20
-30.7099161434
 10
312.9153187266
 20
-28.0147550653
 10
313.7539088543
 20
-25.3229793824
 10
314.5012800506
 20
-22.6405954991
 10
315.1557646381
 20
-19.9735888624
 10
315.7159022057
 20
-17.3279106072
 10
316.1804428675
 20
-14.7094642762
 10
316.5483500517
 20
-12.1240926469
 10
316.8188028135
 20
-9.5775646943
 10
316.991197667
 20
-7.0755627183
 10
317.0651499318
 20
-4.6236696634
 10
317.0404945916
 20
-2.2273566618
 10
316.917286662
 20
0.1080291752
 10
316.6958010681
 20
2.3772766885
 10
316.376532031
 20
4.5753222997
 10
315.9601919646
 20
6.6972613094
 10
315.4477098864
 20
8.7383588421
 10
314.8402293444
 20
10.694060411
 10
314.1391058652
 20
12.5600020812
 10
313.3459039293
 20
14.3320202072
 10
312.4623934806
 20
16.0061607237
 10
311.4905459762
 20
17.5786879685
 10
310.432529988
 20
19.0460930185
 10
309.2907063634
 20
20.4051015192
 10
308.0676229573
 20
21.6526809913
 10
306.766008947
 20
22.7860475971
 10
305.3887687425
 20
23.8026723525
 10
303.938975505
 20
24.7002867703
 10
302.4198642903
 20
25.4768879215
 10
300.8348248295
 20
26.1307429055
 10
299.1873939653
 20
26.660392716
 10
297.4812477603
 20
27.0646554973
 10
295.7201932937
 20
27.3426291809
 10
293.9081601666
 20
27.4936934989
 10
292.0491917336
 20
27.5175113678
 10
290.1474360801
 20
27.4140296405
 10
288.2071367666
 20
27.1834792253
 10
286.2326233596
 20
26.8263745703
 10
284.2283017705
 20
26.3435125156
 10
282.1986444246
 20
25.7359705153
 10
280.148180281
 20
25.0051042331
 10
278.081484727
 20
24.1525445174
 10
276.0031693686
 20
23.1801937625
 10
273.9178717399
 20
22.090221663
 10
271.8302449553
 20
20.8850603729
 10
269.7449473266
 20
19.5673990782
 10
267.6666319682
 20
18.1401779966
 10
265.5999364142
 20
16.6065818164
 10
263.5494722706
 20
14.9700325902
 10
261.5198149247
 20
13.2341820995
 10
259.5154933356
 20
11.4029037053
 10
257.5409799286
 20
9.4802837058
 10
255.6006806151
 20
7.4706122181
 10
253.6989249616
 20
5.3783736051
 10
251.8399565286
 20
3.2082364692
 10
250.0279234015
 20
0.9650432349
 10
248.2668689349
 20
-1.3462006565
 10
246.5607227299
 20
-3.7203379162
 10
244.9132918657
 20
-6.1520709155
 10
243.3282524049
 20
-8.6359735073
 10
241.8091411902
 20
-11.1665031336
 10
240.3593479527
 20
-13.7380131934
 10
238.9821077482
 20
-16.3447656422
 10
237.6804937379
 20
-18.980943796
 10
236.4574103318
 20
-21.6406653105
 10
235.3155867072
 20
-24.3179953069
 10
234.257570719
 20
-27.0069596153
 10
233.2857232146
 20
-29.7015581047
 10
232.4022127659
 20
-32.3957780723
 10
231.60901083
 20
-35.0836076598
 10
230.9078873508
 20
-37.7590492685
 10
230.3004068088
 20
-40.4161329419
 10
229.7879247306
 20
-43.0489296873
 10
229.3715846642
 20
-45.6515647058
 10
229.052315627
 20
-48.218230501
 10
228.8308300332
 20
-50.7431998378
 10
228.7076221036
 20
-53.2208385223
 10
228.6829667634
 20
-55.6456179738
 10
228.7569190282
 20
-58.0121275611
 10
228.9293138817
 20
-60.3150866762
 10
229.1997666434
 20
-62.5493565165
 10
229.5676738276
 20
-64.7099515526
 10
230.0322144895
 20
-66.792050652
 10
230.5923520571
 20
-68.7910078375
 10
231.2468366446
 20
-70.7023626539
 10
231.9942078409
 20
-72.5218501213
 10
232.8327979686
 20
-74.2454102517
 10
233.7607358053
 20
-75.8691971084
 10
234.7759507588
 20
-77.3895873882
 10
235.8761774875
 20
-78.8031885056
 10
237.0589609555
 20
-80.106846164
 10
238.3216619102
 20
-81.2976513933
 10
239.6614627722
 20
-82.3729470414
 10
241.0753739218
 20
-83.3303337032
 10
242.5602403703
 20
-84.1676750748
 10
244.1127488002
 20
-84.8831027201
 10
245.729434958
 20
-85.4750202403
 10
247.4066913847
 20
-85.9421068359
 10
249.1407754655
 20
-86.2833202542
 10
250.9278177806
 20
-86.4978991146
 10
252.7638307399
 20
-86.5853646077
 10
254.6447174806
 20
-86.5455215637
 10
256.5662810088
 20
-86.3784588882
 10
258.524233565
 20
-86.0845493633
 10
260.5142061913
 20
-85.664448816
 10
262.5317584808
 20
-85.119094655
 10
264.5723884854
 20
-84.4497037786
 10
266.6315427616
 20
-83.6577698596
 10
268.7046265311
 20
-82.7450600122
 10
270.7870139333
 20
-81.713610849
 10
272.8740583476
 20
-80.5657239365
  0
LWPOLYLINE
  5
B2
330
1F
100
AcDbEntity
  8
0
  6
Continuous
 62
     7
370
    25
100
AcDbPolyline
 90
       51
 70
   128
 43
0.0
 10
339.2385601073
 20
-118.877135321
 10
341.3256045216
 20
-117.6153720436
 10
343.4079919238
 20
-116.2425478886
 10
345.4810756932
 20
-114.7617261636
 10
347.5402299694
 20
-113.1762111607
 10
349.580859974
 20
-111.489540784
 10
351.5984122636
 20
-109.7054786546
 10
353.5883848899
 20
-107.8280057127
 10
355.5463374461
 20
-105.8613113345
 10
357.4679009743
 20
-103.8097839844
 10
359.348787715
 20
-101.6780014219
 10
361.1848006743
 20
-99.4707204875
 10
362.9718429894
 20
-97.1928664882
 10
364.7059270702
 20
-94.8495222068
 10
366.3831834969
 20
-92.4459165608
 10
367.9998696547
 20
-89.9874129342
 10
369.5523780846
 20
-87.47949721
 10
371.0372445331
 20
-84.9277655287
 10
372.4511556827
 20
-82.3379118016
 10
373.7909565447
 20
-79.715715005
 10
375.0536574994
 20
-77.0670262853
 10
376.2364409674
 20
-74.3977559027
 10
377.3366676961
 20
-71.7138600432
 10
378.3518826496
 20
-69.021327528
 10
379.2798204863
 20
-66.3261664498
 10
380.118410614
 20
-63.634390767
 10
380.8657818103
 20
-60.9520068836
 10
381.5202663978
 20
-58.285000247
 10
382.0804039654
 20
-55.6393219918
 10
382.5449446272
 20
-53.0208756607
 10
382.9128518114
 20
-50.4355040314
 10
383.1833045732
 20
-47.8889760789
 10
383.3556994267
 20
-45.3869741028
 10
383.4296516915
 20
-42.9350810479
 10
383.4049963513
 20
-40.5387680463
 10
383.2817884217
 20
-38.2033822094
 10
383.0603028278
 20
-35.9341346961
 10
382.7410337907
 20
-33.7360890849
 10
382.3246937243
 20
-31.6141500752
 10
381.8122116461
 20
-29.5730525425
 10
381.2047311041
 20
-27.6173509736
 10
380.5036076248
 20
-25.7514093034
 10
379.710405689
 20
-23.9793911773
 10
378.8268952403
 20
-22.3052506609
 10
377.8550477359
 20
-20.732723416
 10
376.7970317477
 20
-19.265318366
 10
375.6552081231
 20
-17.9063098653
 10
374.432124717
 20
-16.6587303932
 10
373.1305107067
 20
-15.5253637874
 10
371.7532705022
 20
-14.508739032
 10
370.4860205022
 20
-13.7152806794
  0
LWPOLYLINE
  5
B3
330
1F
100
AcDbEntity
  8
0
  6
Continuous
 62
     7
370
    25
100
AcDbPolyline
 90
       18
 70
   128
 43
0.0
 10
307.9910997124
 20
-121.971388477
 10
308.92474213
 20
-122.4790864593
 10
310.4772505599
 20
-123.1945141046
 10
312.0939367177
 20
-123.7864316248
 10
313.7711931444
 20
-124.2535182205
 10
315.5052772252
 20
-124.5947316388
 10
317.2923195403
 20
-124.8093104991
 10
319.1283324996
 20
-124.8967759922
 10
321.0092192403
 20
-124.8569329483
 10
322.9307827685
 20
-124.6898702728
 10
324.8887353246
 20
-124.3959607479
 10
326.878707951
 20
-123.9758602006
 10
328.8962602405
 20
-123.4305060395
 10
330.9368902451
 20
-122.7611151631
 10
332.9960445213
 20
-121.9691812441
 10
335.0691282908
 20
-121.0564713967
 10
337.151515693
 20
-120.0250222336
 10
339.2385601073
 20
-118.877135321
  0
LWPOLYLINE
  5
B4
330
1F
100
AcDbEntity
  8
0
  6
Continuous
 62
     7
370
    25
100
AcDbPolyline
 90
      126
 70
   128
 43
0.0
 10
272.8740583476
 20
-74.5233219285
 10
274.831656553
 20
-73.3363984504
 10
276.7843096954
 20
-72.0388210661
 10
278.7270852035
 20
-70.6338675687
 10
280.6550754578
 20
-69.1250869926
 10
282.5634101876
 20
-67.5162906485
 10
284.4472687738
 20
-65.8115424957
 10
286.301892426
 20
-64.0151488759
 10
288.1225962039
 20
-62.1316476353
 10
289.9047808518
 20
-60.1657966615
 10
291.6439444166
 20
-58.1225618646
 10
293.3356936202
 20
-56.0071046332
 10
294.9757549573
 20
-53.8247687957
 10
296.5599854906
 20
-51.5810671219
 10
298.0843833162
 20
-49.2816673969
 10
299.5450976731
 20
-46.932378104
 10
300.9384386698
 20
-44.5391337519
 10
302.2608866063
 20
-42.1079798834
 10
303.5091008641
 20
-39.6450578043
 10
304.6799283458
 20
-37.1565890695
 10
305.7704114395
 20
-34.648859767
 10
306.7777954903
 20
-32.1282046386
 10
307.6995357586
 20
-29.6009910779
 10
308.5333038485
 20
-27.0736030457
 10
309.2769935895
 20
-24.5524249436
 10
309.9287263568
 20
-22.0438254863
 10
310.4868558168
 20
-19.5541416136
 10
310.949972086
 20
-17.0896624831
 10
311.3169052926
 20
-14.6566135831
 10
311.5867285314
 20
-12.2611410061
 10
311.7587602056
 20
-9.9092959238
 10
311.8325657481
 20
-7.607019301
 10
311.8079587198
 20
-5.3601268883
 10
311.6850012802
 20
-3.1742945308
 10
311.4640040304
 20
-1.0550438309
 10
311.1455252287
 20
0.9922718003
 10
310.7303693801
 20
2.9624806659
 10
310.2195852044
 20
4.8506058471
 10
309.6144629867
 20
6.651877776
 10
308.9165313183
 20
8.3617462833
 10
308.127553235
 20
9.9758920929
 10
307.2495217642
 20
11.4902377322
 10
306.2846548893
 20
12.9009578327
 10
305.235389948
 20
14.2044887932
 10
304.1043774744
 20
15.3975377811
 10
302.8944745043
 20
16.4770910513
 10
301.6087373576
 20
17.4404215585
 10
300.2504139179
 20
18.2850958463
 10
298.8229354281
 20
19.0089801939
 10
297.3299078227
 20
19.6102460069
 10
295.7751026191
 20
20.0873744355
 10
294.1624473902
 20
20.439160212
 10
292.4960158429
 20
20.6647146948
 10
290.780017528
 20
20.7634681139
 10
289.0187872062
 20
20.7351710095
 10
287.2167738982
 20
20.5798948626
 10
285.3785296459
 20
20.2980319142
 10
283.5086980139
 20
19.8902941745
 10
281.6120023591
 20
19.3577116245
 10
279.6932338994
 20
18.701629614
 10
277.7572396104
 20
17.9237054629
 10
275.8089099818
 20
17.0259042753
 10
273.8531666632
 20
16.0104939748
 10
271.894950032
 20
14.880039576
 10
269.9392067134
 20
13.6373967049
 10
267.9908770848
 20
12.2857043851
 10
266.0548827958
 20
10.8283771088
 10
264.1361143361
 20
9.2690962111
 10
262.2394186813
 20
7.6118005709
 10
260.3695870493
 20
5.8606766609
 10
258.531342797
 20
4.020147972
 10
256.729329489
 20
2.0948638394
 10
254.9680991672
 20
0.089687698
 10
253.2521008523
 20
-1.9903152034
 10
251.585669305
 20
-4.1398905968
 10
249.9730140761
 20
-6.3536084683
 10
248.4182088724
 20
-8.6258767743
 10
246.9251812671
 20
-10.9509555681
 10
245.4977027773
 20
-13.3229714986
 10
244.1393793376
 20
-15.7359326479
 10
242.8536421909
 20
-18.1837436666
 10
241.6437392208
 20
-20.6602211717
 10
240.5127267472
 20
-23.1591093661
 10
239.4634618059
 20
-25.6740958412
 10
238.498594931
 20
-28.1988275231
 10
237.6205634601
 20
-30.7269267203
 10
236.8315853769
 20
-33.2520072349
 10
236.1336537085
 20
-35.7676904944
 10
235.5285314908
 20
-38.2676216645
 10
235.0177473151
 20
-40.7454857021
 10
234.6025914665
 20
-43.1950233076
 10
234.2841126648
 20
-45.6100467364
 10
234.063115415
 20
-47.9844554297
 10
233.9401579754
 20
-50.3122514252
 10
233.9155509471
 20
-52.587554508
 10
233.9893564896
 20
-54.8046170652
 10
234.1613881638
 20
-56.9578386044
 10
234.4312114026
 20
-59.0417799009
 10
234.7981446092
 20
-61.0511767384
 10
235.2612608784
 20
-62.9809532058
 10
235.8193903384
 20
-64.8262345205
 10
236.4711231056
 20
-66.5823593417
 10
237.2148128467
 20
-68.2448915456
 10
238.0485809366
 20
-69.8096314316
 10
238.9703212049
 20
-71.272626331
 10
239.9777052557
 20
-72.6301805917
 10
241.0681883494
 20
-73.8788649138
 10
242.2390158311
 20
-75.0155250124
 10
243.4872300889
 20
-76.0372895853
 10
244.8096780253
 20
-76.9415775665
 10
246.2030190221
 20
-77.7261046463
 10
247.663733379
 20
-78.388889041
 10
249.1881312046
 20
-78.9282564999
 10
250.7723617379
 20
-79.3428445337
 10
252.412423075
 20
-79.6316058573
 10
254.1041722786
 20
-79.7938110344
 10
255.8433358434
 20
-79.8290503207
 10
257.6255204913
 20
-79.7372346987
 10
259.4462242692
 20
-79.5185961026
 10
261.3008479214
 20
-79.1736868325
 10
263.1847065076
 20
-78.7033781592
 10
265.0930412374
 20
-78.1088581231
 10
267.0210314917
 20
-77.3916285335
 10
268.9638069998
 20
-76.5535011745
 10
270.9164601422
 20
-75.5965932287
 10
272.8740583476
 20
-74.5233219285
  0
ENDSEC
  0
SECTION
  2
OBJECTS
  0
DICTIONARY
  5
C
330
0
100
AcDbDictionary
281
     1
  3
ACAD_GROUP
350
D
  3
ACAD_LAYOUT
350
1A
  3
ACAD_MLINESTYLE
350
17
  3
ACAD_PLOTSETTINGS
350
19
  3
ACAD_PLOTSTYLENAME
350
E
  3
ACAD_SCALELIST
350
47
  3
DWGPROPS
350
B5
  0
DICTIONARY
  5
D
102
{ACAD_REACTORS
330
C
102
}
330
C
100
AcDbDictionary
281
     1
  0
DICTIONARY
  5
1A
102
{ACAD_REACTORS
330
C
102
}
330
C
100
AcDbDictionary
281
     1
  3
Layout1
350
1E
  3
Layout2
350
26
  3
Model
350
22
  0
DICTIONARY
  5
17
102
{ACAD_REACTORS
330
C
102
}
330
C
100
AcDbDictionary
281
     1
  3
Standard
350
18
  0
DICTIONARY
  5
19
102
{ACAD_REACTORS
330
C
102
}
330
C
100
AcDbDictionary
281
     1
  0
ACDBDICTIONARYWDFLT
  5
E
102
{ACAD_REACTORS
330
C
102
}
330
C
100
AcDbDictionary
281
     1
  3
Normal
350
F
100
AcDbDictionaryWithDefault
340
F
  0
DICTIONARY
  5
47
102
{ACAD_REACTORS
330
C
102
}
330
C
100
AcDbDictionary
281
     1
  3
A0
350
48
  3
A1
350
49
  3
A2
350
4A
  3
A3
350
4B
  3
A4
350
4C
  3
A5
350
4D
  3
A6
350
4E
  3
A7
350
4F
  3
A8
350
50
  3
A9
350
51
  3
B0
350
52
  3
B1
350
53
  3
B2
350
54
  3
B3
350
55
  3
B4
350
56
  3
B5
350
57
  3
B6
350
58
  3
B7
350
59
  3
B8
350
5A
  3
B9
350
5B
  3
C0
350
5C
  3
C1
350
5D
  3
C2
350
5E
  3
C3
350
5F
  3
C4
350
60
  3
C5
350
61
  3
C6
350
62
  3
C7
350
63
  3
C8
350
64
  3
C9
350
65
  3
D0
350
66
  3
D1
350
67
  3
D2
350
68
  0
XRECORD
  5
B5
102
{ACAD_REACTORS
330
C
102
}
330
C
100
AcDbXrecord
280
     1
  1
DWGPROPS COOKIE
  2

  3

  4

  6

  7

  8
b.kav
  9

300
=
301
=
302
=
303
=
304
=
305
=
306
=
307
=
308
=
309
=
 40
0.0
 41
2460704.33518941
 42
2460704.335189595
  1

 90
        0
  0
LAYOUT
  5
1E
102
{ACAD_REACTORS
330
1A
102
}
330
1A
100
AcDbPlotSettings
  1

  2
none_device
  4

  6

 40
0.0
 41
0.0
 42
0.0
 43
0.0
 44
0.0
 45
0.0
 46
0.0
 47
0.0
 48
0.0
 49
0.0
140
0.0
141
0.0
142
1.0
143
1.0
 70
   688
 72
     1
 73
     0
 74
     5
  7

 75
    16
147
1.0
148
0.0
149
0.0
100
AcDbLayout
  1
Layout1
 70
     1
 71
     1
 10
0.0
 20
0.0
 11
420.0
 21
297.0
 12
0.0
 22
0.0
 32
0.0
 14
1.0000000000E+20
 24
1.0000000000E+20
 34
1.0000000000E+20
 15
-1.0000000000E+20
 25
-1.0000000000E+20
 35
-1.0000000000E+20
146
0.0
 13
0.0
 23
0.0
 33
0.0
 16
1.0
 26
0.0
 36
0.0
 17
0.0
 27
1.0
 37
0.0
 76
     0
330
1B
  0
LAYOUT
  5
26
102
{ACAD_REACTORS
330
1A
102
}
330
1A
100
AcDbPlotSettings
  1

  2
none_device
  4

  6

 40
0.0
 41
0.0
 42
0.0
 43
0.0
 44
0.0
 45
0.0
 46
0.0
 47
0.0
 48
0.0
 49
0.0
140
0.0
141
0.0
142
1.0
143
1.0
 70
   688
 72
     1
 73
     0
 74
     5
  7

 75
    16
147
1.0
148
0.0
149
0.0
100
AcDbLayout
  1
Layout2
 70
     1
 71
     2
 10
0.0
 20
0.0
 11
0.0
 21
0.0
 12
0.0
 22
0.0
 32
0.0
 14
0.0
 24
0.0
 34
0.0
 15
0.0
 25
0.0
 35
0.0
146
0.0
 13
0.0
 23
0.0
 33
0.0
 16
1.0
 26
0.0
 36
0.0
 17
0.0
 27
1.0
 37
0.0
 76
     0
330
23
  0
LAYOUT
  5
22
102
{ACAD_REACTORS
330
1A
102
}
330
1A
100
AcDbPlotSettings
  1

  2
none_device
  4
Letter_(8.50_x_11.00_Inches)
  6

 40
6.35
 41
6.35
 42
6.35000508
 43
6.35000508
 44
215.9
 45
279.4
 46
0.0
 47
0.0
 48
0.0
 49
0.0
140
0.0
141
0.0
142
1.0
143
1.0
 70
  1712
 72
     1
 73
     0
 74
     0
  7

 75
     0
147
1.0
148
0.0
149
0.0
100
AcDbLayout
  1
Model
 70
     1
 71
     0
 10
0.0
 20
0.0
 11
279.4
 21
215.9
 12
0.0
 22
0.0
 32
0.0
 14
0.0
 24
0.0
 34
0.0
 15
279.4
 25
215.9
 35
0.0
146
0.0
 13
0.0
 23
0.0
 33
0.0
 16
1.0
 26
0.0
 36
0.0
 17
0.0
 27
1.0
 37
0.0
 76
     0
330
1F
331
29
  0
MLINESTYLE
  5
18
102
{ACAD_REACTORS
330
17
102
}
330
17
100
AcDbMlineStyle
  2
Standard
 70
     0
  3

 62
   256
 51
90.0
 52
90.0
 71
     2
 49
0.5
 62
   256
  6
BYLAYER
 49
-0.5
 62
   256
  6
BYLAYER
  0
ACDBPLACEHOLDER
  5
F
102
{ACAD_REACTORS
330
E
102
}
330
E
  0
SCALE
  5
48
102
{ACAD_REACTORS
330
47
102
}
330
47
100
AcDbScale
 70
     0
300
1:1
140
1.0
141
1.0
290
     1
  0
SCALE
  5
49
102
{ACAD_REACTORS
330
47
102
}
330
47
100
AcDbScale
 70
     0
300
1:2
140
1.0
141
2.0
290
     0
  0
SCALE
  5
4A
102
{ACAD_REACTORS
330
47
102
}
330
47
100
AcDbScale
 70
     0
300
1:4
140
1.0
141
4.0
290
     0
  0
SCALE
  5
4B
102
{ACAD_REACTORS
330
47
102
}
330
47
100
AcDbScale
 70
     0
300
1:5
140
1.0
141
5.0
290
     0
  0
SCALE
  5
4C
102
{ACAD_REACTORS
330
47
102
}
330
47
100
AcDbScale
 70
     0
300
1:8
140
1.0
141
8.0
290
     0
  0
SCALE
  5
4D
102
{ACAD_REACTORS
330
47
102
}
330
47
100
AcDbScale
 70
     0
300
1:10
140
1.0
141
10.0
290
     0
  0
SCALE
  5
4E
102
{ACAD_REACTORS
330
47
102
}
330
47
100
AcDbScale
 70
     0
300
1:16
140
1.0
141
16.0
290
     0
  0
SCALE
  5
4F
102
{ACAD_REACTORS
330
47
102
}
330
47
100
AcDbScale
 70
     0
300
1:20
140
1.0
141
20.0
290
     0
  0
SCALE
  5
50
102
{ACAD_REACTORS
330
47
102
}
330
47
100
AcDbScale
 70
     0
300
1:30
140
1.0
141
30.0
290
     0
  0
SCALE
  5
51
102
{ACAD_REACTORS
330
47
102
}
330
47
100
AcDbScale
 70
     0
300
1:40
140
1.0
141
40.0
290
     0
  0
SCALE
  5
52
102
{ACAD_REACTORS
330
47
102
}
330
47
100
AcDbScale
 70
     0
300
1:50
140
1.0
141
50.0
290
     0
  0
SCALE
  5
53
102
{ACAD_REACTORS
330
47
102
}
330
47
100
AcDbScale
 70
     0
300
1:100
140
1.0
141
100.0
290
     0
  0
SCALE
  5
54
102
{ACAD_REACTORS
330
47
102
}
330
47
100
AcDbScale
 70
     0
300
2:1
140
2.0
141
1.0
290
     0
  0
SCALE
  5
55
102
{ACAD_REACTORS
330
47
102
}
330
47
100
AcDbScale
 70
     0
300
4:1
140
4.0
141
1.0
290
     0
  0
SCALE
  5
56
102
{ACAD_REACTORS
330
47
102
}
330
47
100
AcDbScale
 70
     0
300
8:1
140
8.0
141
1.0
290
     0
  0
SCALE
  5
57
102
{ACAD_REACTORS
330
47
102
}
330
47
100
AcDbScale
 70
     0
300
10:1
140
10.0
141
1.0
290
     0
  0
SCALE
  5
58
102
{ACAD_REACTORS
330
47
102
}
330
47
100
AcDbScale
 70
     0
300
100:1
140
100.0
141
1.0
290
     0
  0
SCALE
  5
59
102
{ACAD_REACTORS
330
47
102
}
330
47
100
AcDbScale
 70
     0
300
1/128" = 1'-0"
140
0.0078125
141
12.0
290
     0
  0
SCALE
  5
5A
102
{ACAD_REACTORS
330
47
102
}
330
47
100
AcDbScale
 70
     0
300
1/64" = 1'-0"
140
0.015625
141
12.0
290
     0
  0
SCALE
  5
5B
102
{ACAD_REACTORS
330
47
102
}
330
47
100
AcDbScale
 70
     0
300
1/32" = 1'-0"
140
0.03125
141
12.0
290
     0
  0
SCALE
  5
5C
102
{ACAD_REACTORS
330
47
102
}
330
47
100
AcDbScale
 70
     0
300
1/16" = 1'-0"
140
0.0625
141
12.0
290
     0
  0
SCALE
  5
5D
102
{ACAD_REACTORS
330
47
102
}
330
47
100
AcDbScale
 70
     0
300
3/32" = 1'-0"
140
0.09375
141
12.0
290
     0
  0
SCALE
  5
5E
102
{ACAD_REACTORS
330
47
102
}
330
47
100
AcDbScale
 70
     0
300
1/8" = 1'-0"
140
0.125
141
12.0
290
     0
  0
SCALE
  5
5F
102
{ACAD_REACTORS
330
47
102
}
330
47
100
AcDbScale
 70
     0
300
3/16" = 1'-0"
140
0.1875
141
12.0
290
     0
  0
SCALE
  5
60
102
{ACAD_REACTORS
330
47
102
}
330
47
100
AcDbScale
 70
     0
300
1/4" = 1'-0"
140
0.25
141
12.0
290
     0
  0
SCALE
  5
61
102
{ACAD_REACTORS
330
47
102
}
330
47
100
AcDbScale
 70
     0
300
3/8" = 1'-0"
140
0.375
141
12.0
290
     0
  0
SCALE
  5
62
102
{ACAD_REACTORS
330
47
102
}
330
47
100
AcDbScale
 70
     0
300
1/2" = 1'-0"
140
0.5
141
12.0
290
     0
  0
SCALE
  5
63
102
{ACAD_REACTORS
330
47
102
}
330
47
100
AcDbScale
 70
     0
300
3/4" = 1'-0"
140
0.75
141
12.0
290
     0
  0
SCALE
  5
64
102
{ACAD_REACTORS
330
47
102
}
330
47
100
AcDbScale
 70
     0
300
1" = 1'-0"
140
1.0
141
12.0
290
     0
  0
SCALE
  5
65
102
{ACAD_REACTORS
330
47
102
}
330
47
100
AcDbScale
 70
     0
300
1-1/2" = 1'-0"
140
1.5
141
12.0
290
     0
  0
SCALE
  5
66
102
{ACAD_REACTORS
330
47
102
}
330
47
100
AcDbScale
 70
     0
300
3" = 1'-0"
140
3.0
141
12.0
290
     0
  0
SCALE
  5
67
102
{ACAD_REACTORS
330
47
102
}
330
47
100
AcDbScale
 70
     0
300
6" = 1'-0"
140
6.0
141
12.0
290
     0
  0
SCALE
  5
68
102
{ACAD_REACTORS
330
47
102
}
330
47
100
AcDbScale
 70
     0
300
1'-0" = 1'-0"
140
12.0
141
12.0
290
     0
  0
ENDSEC
  0
EOF
